0
SECTION
2
HEADER
9
$INSUNITS
70
1
9
$ACADVER
1
AC1014
9
$HANDSEED
5
FFFF
0
ENDSEC
0
SECTION
2
TABLES
0
TABLE
2
VPORT
5
8
100
AcDbSymbolTable
0
ENDTAB
0
TABLE
2
LTYPE
5
5
100
AcDbSymbolTable
0
LTYPE
5
14
100
AcDbSymbolTableRecord
100
AcDbLinetypeTableRecord
2
BYBLOCK
70
0
0
LTYPE
5
15
100
AcDbSymbolTableRecord
100
AcDbLinetypeTableRecord
2
BYLAYER
70
0
0
ENDTAB
0
TABLE
2
LAYER
5
2
100
AcDbSymbolTable
70
2
0
LAYER
5
50
100
AcDbSymbolTableRecord
100
AcDbLayerTableRecord
2
0
70
0
6
CONTINUOUS
0
ENDTAB
0
TABLE
2
STYLE
5
3
100
AcDbSymbolTable
70
1
0
STYLE
5
11
100
AcDbSymbolTableRecord
100
AcDbTextStyleTableRecord
2
STANDARD
70
0
0
ENDTAB
0
TABLE
2
VIEW
5
6
100
AcDbSymbolTable
70
0
0
ENDTAB
0
TABLE
2
UCS
5
7
100
AcDbSymbolTable
70
0
0
ENDTAB
0
TABLE
2
APPID
5
9
100
AcDbSymbolTable
70
2
0
APPID
5
12
100
AcDbSymbolTableRecord
100
AcDbRegAppTableRecord
2
ACAD
70
0
0
ENDTAB
0
TABLE
2
DIMSTYLE
5
A
100
AcDbSymbolTable
70
1
0
ENDTAB
0
TABLE
2
BLOCK_RECORD
5
1
100
AcDbSymbolTable
70
1
0
BLOCK_RECORD
5
1F
100
AcDbSymbolTableRecord
100
AcDbBlockTableRecord
2
*MODEL_SPACE
0
BLOCK_RECORD
5
1B
100
AcDbSymbolTableRecord
100
AcDbBlockTableRecord
2
*PAPER_SPACE
0
ENDTAB
0
ENDSEC
0
SECTION
2
BLOCKS
0
BLOCK
5
20
100
AcDbEntity
100
AcDbBlockBegin
2
*MODEL_SPACE
0
ENDBLK
5
21
100
AcDbEntity
100
AcDbBlockEnd
0
BLOCK
5
1C
100
AcDbEntity
100
AcDbBlockBegin
2
*PAPER_SPACE
0
ENDBLK
5
1D
100
AcDbEntity
100
AcDbBlockEnd
0
ENDSEC
0
SECTION
2
ENTITIES
0
ARC
5
100
100
AcDbEntity
8
0
100
AcDbCircle
10
-45.488494761281508
20
-68.531115045710251
30
0
40
0.12499999999998883
100
AcDbArc
50
-134.99999999994012
51
45.000000000052971
0
LINE
5
101
100
AcDbEntity
8
0
100
AcDbLine
10
-45.576883108929728
20
-68.619503393358656
30
6.2230152778512847e-61
11
-45.768610350641119
21
-68.619503393358656
31
6.5116512775091184e-61
0
LINE
5
102
100
AcDbEntity
8
0
100
AcDbLine
10
-45.768610350641119
20
-68.619503393358656
30
6.5116512775091184e-61
11
-45.768610350641133
21
-71.619503393358627
31
0
0
LINE
5
103
100
AcDbEntity
8
0
100
AcDbLine
10
-45.768610350641133
20
-71.619503393358627
30
0
11
-45.57688310892992
21
-71.619503393358627
31
-9.6600852609836817e-63
0
ARC
5
104
100
AcDbEntity
8
0
100
AcDbCircle
10
-45.488494761281522
20
-71.70789174100689
30
0
40
0.12499999999999278
100
AcDbArc
50
-45.000000000025345
51
135.00000120738835
0
LINE
5
105
100
AcDbEntity
8
0
100
AcDbLine
10
-45.400106413633253
20
-71.796280088655237
30
1.2446030555722087e-60
11
-45.400106413633274
21
-75.452836726691956
31
0
0
LINE
5
106
100
AcDbEntity
8
0
100
AcDbLine
10
-45.400106413633274
20
-75.452836726691956
30
0
11
-20.014279641980291
21
-75.452836726691984
31
-9.9332152927870945e-59
0
LINE
5
107
100
AcDbEntity
8
0
100
AcDbLine
10
-20.014279641980291
20
-75.452836726691984
30
-9.9332152927870945e-59
11
-20.014279641980284
21
-58.952836726692006
31
1.2544030796318521e-58
0
LINE
5
108
100
AcDbEntity
8
0
100
AcDbLine
10
-20.014279641980284
20
-58.952836726692006
30
1.2544030796318521e-58
11
-45.400106413633182
21
-58.952836726691984
31
9.9332152927870486e-59
0
LINE
5
109
100
AcDbEntity
8
0
100
AcDbLine
10
-45.400106413633182
20
-58.952836726691984
30
9.9332152927870486e-59
11
-45.40010641363321
21
-63.109393364728547
31
0
0
ARC
5
110
100
AcDbEntity
8
0
100
AcDbCircle
10
-45.48849476128148
20
-63.19778171237693
30
-1.2338160808160125e-73
40
0.12500000000000069
100
AcDbArc
50
-134.99999999994705
51
45.000000000036842
0
LINE
5
111
100
AcDbEntity
8
0
100
AcDbLine
10
-45.576883108929714
20
-63.286170060025327
30
6.2230152778539461e-61
11
-45.768610350641097
21
-63.28617006002532
31
-6.318449572277277e-61
0
LINE
5
112
100
AcDbEntity
8
0
100
AcDbLine
10
-45.768610350641097
20
-63.28617006002532
30
-6.318449572277277e-61
11
-45.76861035064109
21
-66.286170060025313
31
0
0
LINE
5
113
100
AcDbEntity
8
0
100
AcDbLine
10
-45.76861035064109
20
-66.286170060025313
30
0
11
-45.576883108929891
21
-66.286170060025313
31
-6.5116512775026571e-61
0
ARC
5
114
100
AcDbEntity
8
0
100
AcDbCircle
10
-45.488494761281501
20
-66.374558407673547
30
0
40
0.12499999999999674
100
AcDbArc
50
-45.000000000034554
51
135.0000000000507
0
LINE
5
115
100
AcDbEntity
8
0
100
AcDbLine
10
-45.400106413633232
20
-66.462946755321923
30
0
11
-45.400106413633281
21
-68.442726698061861
31
-6.2230152778512868e-61
0
LWPOLYLINE
5
116
100
AcDbEntity
8
0
100
AcDbPolyline
90
8
70
1
43
0.0
10
-21.347612975313702
20
-73.78709373694906
42
-0.99999999999999989
10
-21.170836280016861
20
-73.610317041652621
10
-20.857723003943541
20
-73.610317041652493
42
-0.99999999999999989
10
-20.680946308646959
20
-73.787093736949203
10
-20.680946308647023
20
-74.047713574702243
42
-0.99999999999999989
10
-20.857723003943473
20
-74.224490269999066
10
-21.170836280016921
20
-74.224490269998938
42
-0.99999999999999989
10
-21.347612975313627
20
-74.047713574702357
0
ARC
5
117
100
AcDbEntity
8
0
100
AcDbCircle
10
-22.102667989628582
20
-68.59706496935334
30
-1.088021235287489e-76
40
0.12500000000000069
100
AcDbArc
50
-45.000000000017252
51
134.99999999998732
0
LINE
5
118
100
AcDbEntity
8
0
100
AcDbLine
10
-22.014279641980288
20
-68.685453317001688
30
1.2446030555722369e-60
11
-22.014279641980288
21
-71.331899926408354
31
-3.1360076990796302e-59
0
ARC
5
119
100
AcDbEntity
8
0
100
AcDbCircle
10
-22.102667989628578
20
-71.420288274056716
30
3.95576894505016e-74
40
0.12499999999999474
100
AcDbArc
50
-134.99999999994245
51
45.000000000023029
0
LINE
5
120
100
AcDbEntity
8
0
100
AcDbLine
10
-22.191056337276805
20
-71.508676621705121
30
1.244603055573174e-60
11
-22.451676175030173
21
-71.508676621705121
31
8.8514573323152111e-61
0
ARC
5
121
100
AcDbEntity
8
0
100
AcDbCircle
10
-22.540064522678396
20
-71.420288274056702
30
-5.9079553076110656e-74
40
0.12500000000000069
100
AcDbArc
50
135.00000000001958
51
314.99999999993668
0
LINE
5
122
100
AcDbEntity
8
0
100
AcDbLine
10
-22.628452870326747
20
-71.331899926408411
30
-1.2446030555713653e-60
11
-22.628452870326743
21
-68.685453317001631
31
3.1360076990796302e-59
0
ARC
5
123
100
AcDbEntity
8
0
100
AcDbCircle
10
-22.540064522678392
20
-68.59706496935334
30
-8.704169882299912e-76
40
0.12500000000000069
100
AcDbArc
50
44.999999999938971
51
224.99999999998042
0
LINE
5
124
100
AcDbEntity
8
0
100
AcDbLine
10
-22.451676175029984
20
-68.508676621705121
30
-1.2446030555733973e-60
11
-22.191056337276876
21
-68.508676621705007
31
-1.2446030555722369e-60
0
ARC
5
125
100
AcDbEntity
8
0
100
AcDbCircle
10
-22.102667989628571
20
-63.26373163602004
30
2.0454799223404794e-74
40
0.12499999999999474
100
AcDbArc
50
-45.000000000020712
51
134.99999999998275
0
LINE
5
126
100
AcDbEntity
8
0
100
AcDbLine
10
-22.014279641980288
20
-63.352119983668388
30
6.223015277868573e-61
11
-22.014279641980288
21
-65.99856659307504
31
-3.1360076990796302e-59
0
ARC
5
127
100
AcDbEntity
8
0
100
AcDbCircle
10
-22.102667989628571
20
-66.086954940723402
30
1.7167593760559244e-74
40
0.12499999999999674
100
AcDbArc
50
-134.99999999994475
51
45.000000000025331
0
LINE
5
128
100
AcDbEntity
8
0
100
AcDbLine
10
-22.191056337276805
20
-66.175343288371806
30
6.2230152778657638e-61
11
-22.451676175030165
21
-66.175343288371792
31
8.8514573323151158e-61
0
ARC
5
129
100
AcDbEntity
8
0
100
AcDbCircle
10
-22.540064522678389
20
-66.086954940723388
30
-6.0276376434926888e-74
40
0.12500000000000266
100
AcDbArc
50
135.00000000001958
51
314.99999999994128
0
LINE
5
130
100
AcDbEntity
8
0
100
AcDbLine
10
-22.62845287032674
20
-65.998566593075097
30
-1.2446030555713483e-60
11
-22.62845287032674
21
-63.352119983668331
31
0
0
ARC
5
131
100
AcDbEntity
8
0
100
AcDbCircle
10
-22.540064522678385
20
-63.26373163602004
30
-1.7408339764599824e-74
40
0.12500000000000266
100
AcDbArc
50
44.999999999949331
51
224.99999999997925
0
LINE
5
132
100
AcDbEntity
8
0
100
AcDbLine
10
-22.451676175029988
20
-63.175343288371799
30
-1.2446030555725448e-60
11
-22.191056337276859
21
-63.1753432883717
31
-6.2230152778681653e-61
0
ARC
5
133
100
AcDbEntity
8
0
100
AcDbCircle
10
-32.540064522678357
20
-66.086954940723359
30
2.176042470574978e-75
40
0.12499999999998883
100
AcDbArc
50
135.00000000002993
51
315.00000000002535
0
LINE
5
134
100
AcDbEntity
8
0
100
AcDbLine
10
-32.628452870326711
20
-65.998566593075097
30
-6.2230152778515929e-61
11
-32.628452870326726
21
-63.352119983668317
31
0
0
ARC
5
135
100
AcDbEntity
8
0
100
AcDbCircle
10
-32.540064522678364
20
-63.26373163602004
30
0
40
0.12500000000000464
100
AcDbArc
50
44.999999999956238
51
224.99999999997235
0
LINE
5
136
100
AcDbEntity
8
0
100
AcDbLine
10
-32.451676175029974
20
-63.175343288371785
30
0
11
-32.19105633727694
21
-63.175343288371785
31
-8.85145733230419e-61
0
ARC
5
137
100
AcDbEntity
8
0
100
AcDbCircle
10
-32.102667989628543
20
-63.263731636020033
30
0
40
0.12499999999999674
100
AcDbArc
50
-45.000000000025345
51
135.00000000004837
0
LINE
5
138
100
AcDbEntity
8
0
100
AcDbLine
10
-32.014279641980266
20
-63.352119983668388
30
0
11
-32.014279641980266
21
-65.998566593075026
31
0
0
ARC
5
139
100
AcDbEntity
8
0
100
AcDbCircle
10
-32.102667989628543
20
-66.086954940723388
30
0
40
0.12499999999999278
100
AcDbArc
50
-134.99999999994245
51
44.999998792639296
0
LINE
5
140
100
AcDbEntity
8
0
100
AcDbLine
10
-32.19105633727677
20
-66.175343288371792
30
0
11
-32.451676175030002
21
-66.175343288371636
31
6.2230152778516371e-61
0
ARC
5
141
100
AcDbEntity
8
0
100
AcDbCircle
10
-32.540064522678371
20
-71.420288274056688
30
5.0048976823224497e-75
40
0.12499999999999674
100
AcDbArc
50
135.00000000002535
51
315.00000000002535
0
LINE
5
142
100
AcDbEntity
8
0
100
AcDbLine
10
-32.628452870326726
20
-71.331899926408411
30
-2.0285394801779622e-72
11
-32.628452870326726
21
-68.685453317001617
31
0
0
ARC
5
143
100
AcDbEntity
8
0
100
AcDbCircle
10
-32.540064522678371
20
-68.59706496935334
30
0
40
0.12499999999998883
100
AcDbArc
50
44.999999999942425
51
224.99999999997468
0
LINE
5
144
100
AcDbEntity
8
0
100
AcDbLine
10
-32.451676175029974
20
-68.508676621705121
30
0
11
-32.191056337276947
21
-68.508676621705121
31
-8.85145733230343e-61
0
ARC
5
145
100
AcDbEntity
8
0
100
AcDbCircle
10
-32.102667989628543
20
-68.59706496935334
30
-9.5745868705299027e-75
40
0.12499999999999674
100
AcDbArc
50
-45.000000000036842
51
135.00000000005991
0
LINE
5
146
100
AcDbEntity
8
0
100
AcDbLine
10
-32.014279641980281
20
-68.685453317001716
30
6.2230152778799506e-61
11
-32.014279641980266
21
-71.33189992640834
31
-3.1360076990796302e-59
0
ARC
5
147
100
AcDbEntity
8
0
100
AcDbCircle
10
-32.102667989628543
20
-71.420288274056688
30
2.5024488411612249e-75
40
0.12499999999999674
100
AcDbArc
50
-134.9999999999286
51
45.000000000023029
0
LINE
5
148
100
AcDbEntity
8
0
100
AcDbLine
10
-32.191056337276756
20
-71.508676621705121
30
6.2230152778563593e-61
11
-32.451676175030016
21
-71.508676621704964
31
2.0383968556277857e-72
0
ARC
5
149
100
AcDbEntity
8
0
100
AcDbCircle
10
-38.759224627665219
20
-59.978621607390039
30
2.9594177599819698e-73
40
0.12499999999999278
100
AcDbArc
50
135.00000000003686
51
315.00000000003911
0
LINE
5
150
100
AcDbEntity
8
0
100
AcDbLine
10
-38.847612975313588
20
-59.890233259741784
30
3.1115076389285916e-60
11
-38.847612975313588
21
-59.629613421988502
31
0
0
ARC
5
151
100
AcDbEntity
8
0
100
AcDbCircle
10
-38.759224627665219
20
-59.541225074340232
30
-1.9638783296939178e-74
40
0.12500000000000069
100
AcDbArc
50
44.999999999949331
51
224.99999999996774
0
LINE
5
152
100
AcDbEntity
8
0
100
AcDbLine
10
-38.670836280016822
20
-59.452836726691991
30
6.2230152778610457e-61
11
-36.02438967061024
21
-59.452836726691991
31
-8.988152800394421e-60
0
ARC
5
153
100
AcDbEntity
8
0
100
AcDbCircle
10
-35.936001322961857
20
-59.541225074340247
30
2.186922682927853e-74
40
0.12500000000000069
100
AcDbArc
50
-45.000000000029921
51
135.0000000000415
0
LINE
5
154
100
AcDbEntity
8
0
100
AcDbLine
10
-35.847612975313588
20
-59.629613421988608
30
6.2230152778689626e-61
11
-35.847612975313595
21
-59.890233259741692
31
-1.9600048119247689e-60
0
ARC
5
155
100
AcDbEntity
8
0
100
AcDbCircle
10
-35.936001322961857
20
-59.97862160739006
30
1.088021235287489e-76
40
0.12500000000000069
100
AcDbArc
50
-134.99999999995626
51
45.000000000034539
0
LINE
5
156
100
AcDbEntity
8
0
100
AcDbLine
10
-36.024389670610113
20
-60.067009955038451
30
6.223015277864505e-61
11
-38.670836280016843
21
-60.067009955038294
31
-3.1115076389279996e-60
0
ARC
5
157
100
AcDbEntity
8
0
100
AcDbCircle
10
-30.092557960998572
20
-59.978621607390046
30
-1.1315420846989886e-74
40
0.12499999999999278
100
AcDbArc
50
135.00000000003223
51
314.99999879261281
0
LINE
5
158
100
AcDbEntity
8
0
100
AcDbLine
10
-30.180946308646934
20
-59.890233259741784
30
-6.2230152778518844e-61
11
-30.180946308646934
21
-59.629613421988523
31
1.9600048119247689e-60
0
ARC
5
159
100
AcDbEntity
8
0
100
AcDbCircle
10
-30.092557960998587
20
-59.541225074340247
30
9.8465921793517759e-75
40
0.12499999999999674
100
AcDbArc
50
44.999999999945885
51
224.99999999997695
0
LINE
5
160
100
AcDbEntity
8
0
100
AcDbLine
10
-30.004169613350186
20
-59.452836726692013
30
-6.2230152778610457e-61
11
-27.357723003943615
21
-59.452836726692013
31
-8.9881528003943845e-60
0
ARC
5
161
100
AcDbEntity
8
0
100
AcDbCircle
10
-27.269334656295221
20
-59.541225074340247
30
-3.9277566593878356e-74
40
0.12500000000000069
100
AcDbArc
50
-45.00000000002305
51
135.00000120739296
0
LINE
5
162
100
AcDbEntity
8
0
100
AcDbLine
10
-27.180946308646938
20
-59.629613421988601
30
1.2446030555722087e-60
11
-27.180946308646945
21
-59.890233259741706
31
0
0
ARC
5
163
100
AcDbEntity
8
0
100
AcDbCircle
10
-27.269334656295221
20
-59.978621607390068
30
3.9386368717407104e-74
40
0.12499999999998883
100
AcDbArc
50
-134.99999999994012
51
45.000000000027633
0
LINE
5
164
100
AcDbEntity
8
0
100
AcDbLine
10
-27.357723003943441
20
-60.067009955038472
30
1.2446030555722089e-60
11
-30.00416961335036
21
-60.067009955038472
31
8.9881528003955319e-60
0
ENDSEC
0
SECTION
2
OBJECTS
0
DICTIONARY
5
C
100
AcDbDictionary
3
ACAD_GROUP
350
D
3
ACAD_MLINESTYLE
350
17
0
DICTIONARY
5
D
100
AcDbDictionary
0
DICTIONARY
5
1A
330
C
100
AcDbDictionary
0
DICTIONARY
5
17
100
AcDbDictionary
0
ENDSEC
0
EOF
